0
SECTION
2
HEADER
9
$INSUNITS
70
4
9
$ACADVER
1
AC1014
9
$HANDSEED
5
FFFF
0
ENDSEC
0
SECTION
2
TABLES
0
TABLE
2
VPORT
5
8
100
AcDbSymbolTable
0
ENDTAB
0
TABLE
2
LTYPE
5
5
100
AcDbSymbolTable
0
LTYPE
5
14
100
AcDbSymbolTableRecord
100
AcDbLinetypeTableRecord
2
BYBLOCK
70
0
0
LTYPE
5
15
100
AcDbSymbolTableRecord
100
AcDbLinetypeTableRecord
2
BYLAYER
70
0
0
ENDTAB
0
TABLE
2
LAYER
5
2
100
AcDbSymbolTable
70
2
0
LAYER
5
50
100
AcDbSymbolTableRecord
100
AcDbLayerTableRecord
2
0
70
0
6
CONTINUOUS
0
ENDTAB
0
TABLE
2
STYLE
5
3
100
AcDbSymbolTable
70
1
0
STYLE
5
11
100
AcDbSymbolTableRecord
100
AcDbTextStyleTableRecord
2
STANDARD
70
0
0
ENDTAB
0
TABLE
2
VIEW
5
6
100
AcDbSymbolTable
70
0
0
ENDTAB
0
TABLE
2
UCS
5
7
100
AcDbSymbolTable
70
0
0
ENDTAB
0
TABLE
2
APPID
5
9
100
AcDbSymbolTable
70
2
0
APPID
5
12
100
AcDbSymbolTableRecord
100
AcDbRegAppTableRecord
2
ACAD
70
0
0
ENDTAB
0
TABLE
2
DIMSTYLE
5
A
100
AcDbSymbolTable
70
1
0
ENDTAB
0
TABLE
2
BLOCK_RECORD
5
1
100
AcDbSymbolTable
70
1
0
BLOCK_RECORD
5
1F
100
AcDbSymbolTableRecord
100
AcDbBlockTableRecord
2
*MODEL_SPACE
0
BLOCK_RECORD
5
1B
100
AcDbSymbolTableRecord
100
AcDbBlockTableRecord
2
*PAPER_SPACE
0
ENDTAB
0
ENDSEC
0
SECTION
2
BLOCKS
0
BLOCK
5
20
100
AcDbEntity
100
AcDbBlockBegin
2
*MODEL_SPACE
0
ENDBLK
5
21
100
AcDbEntity
100
AcDbBlockEnd
0
BLOCK
5
1C
100
AcDbEntity
100
AcDbBlockBegin
2
*PAPER_SPACE
0
ENDBLK
5
1D
100
AcDbEntity
100
AcDbBlockEnd
0
ENDSEC
0
SECTION
2
ENTITIES
0
LINE
5
100
100
AcDbEntity
8
0
100
AcDbLine
10
148.4999996415421
20
146.37500030716632
30
0
11
135.99999964154233
21
146.37500030716632
31
0
0
LINE
5
101
100
AcDbEntity
8
0
100
AcDbLine
10
163.4999996415421
20
144.8750003071664
30
0
11
138.4999996415421
21
144.8750003071664
31
0
0
LINE
5
102
100
AcDbEntity
8
0
100
AcDbLine
10
148.4999996415421
20
143.37500030716632
30
0
11
135.99999964154233
21
143.37500030716632
31
0
0
LINE
5
103
100
AcDbEntity
8
0
100
AcDbLine
10
163.4999996415421
20
141.87500030716632
30
0
11
138.4999996415421
21
141.87500030716632
31
0
0
LWPOLYLINE
5
104
100
AcDbEntity
8
0
100
AcDbPolyline
90
100
70
1
43
0.0
10
132.99999964154233
20
151.25000030716632
42
-0.99999999999999989
10
129.99999964154233
20
151.25000030716629
10
129.99999964154233
20
152.75000030716632
10
144.99999964154233
20
152.75000030716632
10
129.99999964154233
20
154.2500003071664
10
129.99999964154233
20
168.25000030716635
10
144.99999964154233
20
169.7500003071664
10
129.99999964154233
20
169.7500003071664
10
129.99999964154233
20
171.25000030716632
42
-0.99999999999999989
10
132.99999964154233
20
171.25000030716632
10
135.99999964154233
20
171.25000030716632
10
135.99999964154233
20
205.00000030716643
10
132.99999964154233
20
205.00000030716643
42
-0.99999999999999989
10
129.99999964154233
20
205.00000030716643
10
129.99999964154233
20
206.5000003071664
10
144.99999964154233
20
206.5000003071664
10
129.99999964154233
20
208.00000030716643
10
129.99999964154233
20
215.00000030716643
10
231.9999996415423
20
215.00000030716643
10
231.9999996415423
20
208.00000030716643
10
216.9999996415423
20
206.5000003071664
10
231.9999996415423
20
206.5000003071664
10
231.9999996415423
20
205.00000030716643
42
-0.99999999999999989
10
228.99999964154233
20
205.00000030716643
10
225.99999964154236
20
205.00000030716643
10
225.99999964154236
20
171.25000030716632
10
228.99999964154233
20
171.25000030716632
42
-0.99999999999999989
10
231.9999996415423
20
171.25000030716632
10
231.9999996415423
20
169.7500003071664
10
216.9999996415423
20
169.7500003071664
10
231.9999996415423
20
168.25000030716635
10
231.9999996415423
20
154.2500003071664
10
216.9999996415423
20
152.75000030716632
10
231.9999996415423
20
152.75000030716632
10
231.9999996415423
20
151.25000030716632
42
-0.99999999999999989
10
228.99999964154233
20
151.25000030716632
10
225.99999964154236
20
151.25000030716632
10
225.99999964154236
20
117.50000030716642
10
228.99999964154233
20
117.50000030716642
42
-0.99999999999999989
10
231.9999996415423
20
117.50000030716642
10
231.9999996415423
20
116.00000030716629
10
216.9999996415423
20
116.00000030716629
10
231.9999996415423
20
114.5000003071664
10
231.9999996415423
20
100.5000003071663
10
216.9999996415423
20
99.000000307166374
10
231.9999996415423
20
99.000000307166374
10
231.9999996415423
20
97.50000030716636
42
-0.99999999999999989
10
228.99999964154233
20
97.50000030716636
10
225.99999964154236
20
97.50000030716636
10
225.99999964154236
20
63.750000307166403
10
228.99999964154233
20
63.750000307166403
42
-0.99999999999999989
10
231.9999996415423
20
63.750000307166403
10
231.9999996415423
20
62.25000030716636
10
216.9999996415423
20
62.25000030716636
10
231.9999996415423
20
60.750000307166374
10
231.9999996415423
20
46.750000307166374
10
216.9999996415423
20
45.25000030716636
10
231.9999996415423
20
45.25000030716636
10
231.9999996415423
20
43.750000307166374
42
-0.99999999999999989
10
228.99999964154233
20
43.750000307166374
10
225.99999964154236
20
43.750000307166374
10
225.99999964154236
20
10.000000307166372
10
228.99999964154233
20
10.000000307166371
42
-0.99999999999999989
10
231.9999996415423
20
10.000000307166371
10
231.9999996415423
20
8.5000003071663741
10
216.9999996415423
20
8.5000003071663741
10
231.9999996415423
20
7.0000003071663741
10
231.9999996415423
20
3.0716637455796558e-07
10
129.99999964154233
20
3.0716637455796558e-07
10
129.99999964154233
20
7.0000003071663741
10
144.99999964154233
20
8.5000003071663741
10
129.99999964154233
20
8.5000003071663741
10
129.99999964154233
20
10.000000307166379
42
-0.99999999999999989
10
132.99999964154233
20
10.000000307166365
10
135.99999964154233
20
10.000000307166372
10
135.99999964154233
20
43.750000307166374
10
132.99999964154233
20
43.750000307166353
42
-0.99999999999999989
10
129.99999964154233
20
43.750000307166374
10
129.99999964154233
20
45.25000030716636
10
144.99999964154233
20
45.25000030716636
10
129.99999964154233
20
46.750000307166374
10
129.99999964154233
20
60.750000307166374
10
144.99999964154233
20
62.25000030716636
10
129.99999964154233
20
62.25000030716636
10
129.99999964154233
20
63.750000307166417
42
-0.99999999999999989
10
132.99999964154233
20
63.750000307166403
10
135.99999964154233
20
63.750000307166403
10
135.99999964154233
20
97.50000030716636
10
132.99999964154233
20
97.50000030716636
42
-0.99999999999999989
10
129.99999964154233
20
97.500000307166331
10
129.99999964154233
20
99.000000307166374
10
144.99999964154233
20
99.000000307166374
10
129.99999964154233
20
100.5000003071663
10
129.99999964154233
20
114.5000003071664
10
144.99999964154233
20
116.00000030716629
10
129.99999964154233
20
116.00000030716629
10
129.99999964154233
20
117.50000030716642
42
-0.99999999999999989
10
132.99999964154233
20
117.50000030716642
10
135.99999964154233
20
117.50000030716642
10
135.99999964154233
20
151.25000030716632
0
LINE
5
105
100
AcDbEntity
8
0
100
AcDbLine
10
144.99999964154233
20
151.25000030716632
30
0
11
135.99999964154233
21
151.25000030716632
31
0
0
LINE
5
106
100
AcDbEntity
8
0
100
AcDbLine
10
148.4999996415421
20
140.3750003071664
30
0
11
135.99999964154233
21
140.3750003071664
31
0
0
LINE
5
107
100
AcDbEntity
8
0
100
AcDbLine
10
178.4999996415421
20
146.37500030716632
30
0
11
153.4999996415421
21
146.37500030716632
31
0
0
LINE
5
108
100
AcDbEntity
8
0
100
AcDbLine
10
208.4999996415421
20
146.37500030716632
30
0
11
183.4999996415421
21
146.37500030716632
31
0
0
LINE
5
109
100
AcDbEntity
8
0
100
AcDbLine
10
213.4999996415421
20
146.37500030716632
30
0
11
225.99999964154216
21
146.37500030716632
31
0
0
LINE
5
110
100
AcDbEntity
8
0
100
AcDbLine
10
216.9999996415423
20
151.25000030716632
30
0
11
225.99999964154236
21
151.25000030716632
31
0
0
LINE
5
111
100
AcDbEntity
8
0
100
AcDbLine
10
223.49999964154216
20
144.8750003071664
30
0
11
198.49999964154216
21
144.8750003071664
31
0
0
LINE
5
112
100
AcDbEntity
8
0
100
AcDbLine
10
193.4999996415421
20
144.8750003071664
30
0
11
168.4999996415421
21
144.8750003071664
31
0
0
LINE
5
113
100
AcDbEntity
8
0
100
AcDbLine
10
178.4999996415421
20
143.37500030716632
30
0
11
153.4999996415421
21
143.37500030716632
31
0
0
LINE
5
114
100
AcDbEntity
8
0
100
AcDbLine
10
208.4999996415421
20
143.37500030716632
30
0
11
183.4999996415421
21
143.37500030716632
31
0
0
LINE
5
115
100
AcDbEntity
8
0
100
AcDbLine
10
213.4999996415421
20
143.37500030716632
30
0
11
225.99999964154216
21
143.37500030716632
31
0
0
LINE
5
116
100
AcDbEntity
8
0
100
AcDbLine
10
223.49999964154216
20
141.87500030716632
30
0
11
198.49999964154216
21
141.87500030716632
31
0
0
LINE
5
117
100
AcDbEntity
8
0
100
AcDbLine
10
193.4999996415421
20
141.87500030716632
30
0
11
168.4999996415421
21
141.87500030716632
31
0
0
LINE
5
118
100
AcDbEntity
8
0
100
AcDbLine
10
178.4999996415421
20
140.3750003071664
30
0
11
153.4999996415421
21
140.3750003071664
31
0
0
LINE
5
119
100
AcDbEntity
8
0
100
AcDbLine
10
208.4999996415421
20
140.3750003071664
30
0
11
183.4999996415421
21
140.3750003071664
31
0
0
LINE
5
120
100
AcDbEntity
8
0
100
AcDbLine
10
213.4999996415421
20
140.3750003071664
30
0
11
225.99999964154216
21
140.3750003071664
31
0
0
LINE
5
121
100
AcDbEntity
8
0
100
AcDbLine
10
223.49999964154216
20
138.87500030716632
30
0
11
198.49999964154216
21
138.87500030716632
31
0
0
LINE
5
122
100
AcDbEntity
8
0
100
AcDbLine
10
193.4999996415421
20
138.87500030716632
30
0
11
168.4999996415421
21
138.87500030716632
31
0
0
LINE
5
123
100
AcDbEntity
8
0
100
AcDbLine
10
163.4999996415421
20
138.87500030716632
30
0
11
138.4999996415421
21
138.87500030716632
31
0
0
LINE
5
124
100
AcDbEntity
8
0
100
AcDbLine
10
148.4999996415421
20
137.3750003071664
30
0
11
135.99999964154233
21
137.3750003071664
31
0
0
LINE
5
125
100
AcDbEntity
8
0
100
AcDbLine
10
178.4999996415421
20
137.3750003071664
30
0
11
153.4999996415421
21
137.3750003071664
31
0
0
LINE
5
126
100
AcDbEntity
8
0
100
AcDbLine
10
208.4999996415421
20
137.3750003071664
30
0
11
183.4999996415421
21
137.3750003071664
31
0
0
LINE
5
127
100
AcDbEntity
8
0
100
AcDbLine
10
213.4999996415421
20
137.3750003071664
30
0
11
225.99999964154216
21
137.3750003071664
31
0
0
LINE
5
128
100
AcDbEntity
8
0
100
AcDbLine
10
223.49999964154216
20
135.87500030716629
30
0
11
198.49999964154216
21
135.87500030716629
31
0
0
LINE
5
129
100
AcDbEntity
8
0
100
AcDbLine
10
193.4999996415421
20
135.87500030716629
30
0
11
168.4999996415421
21
135.87500030716629
31
0
0
LINE
5
130
100
AcDbEntity
8
0
100
AcDbLine
10
163.4999996415421
20
135.87500030716629
30
0
11
138.4999996415421
21
135.87500030716629
31
0
0
LINE
5
131
100
AcDbEntity
8
0
100
AcDbLine
10
178.4999996415421
20
134.37500030716643
30
0
11
153.4999996415421
21
134.37500030716643
31
0
0
LINE
5
132
100
AcDbEntity
8
0
100
AcDbLine
10
148.4999996415421
20
134.37500030716643
30
0
11
135.99999964154233
21
134.37500030716643
31
0
0
LINE
5
133
100
AcDbEntity
8
0
100
AcDbLine
10
208.4999996415421
20
134.37500030716643
30
0
11
183.4999996415421
21
134.37500030716643
31
0
0
LINE
5
134
100
AcDbEntity
8
0
100
AcDbLine
10
213.4999996415421
20
134.37500030716643
30
0
11
225.99999964154216
21
134.37500030716643
31
0
0
LINE
5
135
100
AcDbEntity
8
0
100
AcDbLine
10
193.4999996415421
20
132.87500030716629
30
0
11
168.4999996415421
21
132.87500030716629
31
0
0
LINE
5
136
100
AcDbEntity
8
0
100
AcDbLine
10
163.4999996415421
20
132.87500030716629
30
0
11
138.4999996415421
21
132.87500030716629
31
0
0
LINE
5
137
100
AcDbEntity
8
0
100
AcDbLine
10
148.4999996415421
20
131.3750003071664
30
0
11
135.99999964154233
21
131.3750003071664
31
0
0
LINE
5
138
100
AcDbEntity
8
0
100
AcDbLine
10
178.4999996415421
20
131.3750003071664
30
0
11
153.4999996415421
21
131.3750003071664
31
0
0
LINE
5
139
100
AcDbEntity
8
0
100
AcDbLine
10
208.4999996415421
20
131.3750003071664
30
0
11
183.4999996415421
21
131.3750003071664
31
0
0
LINE
5
140
100
AcDbEntity
8
0
100
AcDbLine
10
223.49999964154216
20
132.87500030716629
30
0
11
198.49999964154216
21
132.87500030716629
31
0
0
LINE
5
141
100
AcDbEntity
8
0
100
AcDbLine
10
213.4999996415421
20
131.3750003071664
30
0
11
225.99999964154216
21
131.3750003071664
31
0
0
LINE
5
142
100
AcDbEntity
8
0
100
AcDbLine
10
223.49999964154216
20
129.87500030716629
30
0
11
198.49999964154216
21
129.87500030716629
31
0
0
LINE
5
143
100
AcDbEntity
8
0
100
AcDbLine
10
193.4999996415421
20
129.87500030716629
30
0
11
168.4999996415421
21
129.87500030716629
31
0
0
LINE
5
144
100
AcDbEntity
8
0
100
AcDbLine
10
163.4999996415421
20
129.87500030716629
30
0
11
138.4999996415421
21
129.87500030716629
31
0
0
LINE
5
145
100
AcDbEntity
8
0
100
AcDbLine
10
148.4999996415421
20
128.37500030716629
30
0
11
135.99999964154233
21
128.37500030716629
31
0
0
LINE
5
146
100
AcDbEntity
8
0
100
AcDbLine
10
178.4999996415421
20
128.37500030716629
30
0
11
153.4999996415421
21
128.37500030716629
31
0
0
LINE
5
147
100
AcDbEntity
8
0
100
AcDbLine
10
208.4999996415421
20
128.37500030716629
30
0
11
183.4999996415421
21
128.37500030716629
31
0
0
LINE
5
148
100
AcDbEntity
8
0
100
AcDbLine
10
213.4999996415421
20
128.37500030716629
30
0
11
225.99999964154216
21
128.37500030716629
31
0
0
LINE
5
149
100
AcDbEntity
8
0
100
AcDbLine
10
223.49999964154216
20
126.87500030716642
30
0
11
198.49999964154216
21
126.87500030716642
31
0
0
LINE
5
150
100
AcDbEntity
8
0
100
AcDbLine
10
193.4999996415421
20
126.87500030716642
30
0
11
168.4999996415421
21
126.87500030716642
31
0
0
LINE
5
151
100
AcDbEntity
8
0
100
AcDbLine
10
178.4999996415421
20
125.37500030716629
30
0
11
153.4999996415421
21
125.37500030716629
31
0
0
LINE
5
152
100
AcDbEntity
8
0
100
AcDbLine
10
163.4999996415421
20
126.87500030716642
30
0
11
138.4999996415421
21
126.87500030716642
31
0
0
LINE
5
153
100
AcDbEntity
8
0
100
AcDbLine
10
148.4999996415421
20
125.37500030716629
30
0
11
135.99999964154233
21
125.37500030716629
31
0
0
LINE
5
154
100
AcDbEntity
8
0
100
AcDbLine
10
163.4999996415421
20
123.8750003071664
30
0
11
138.4999996415421
21
123.8750003071664
31
0
0
LINE
5
155
100
AcDbEntity
8
0
100
AcDbLine
10
148.4999996415421
20
122.3750003071663
30
0
11
135.99999964154233
21
122.3750003071663
31
0
0
LINE
5
156
100
AcDbEntity
8
0
100
AcDbLine
10
178.4999996415421
20
122.3750003071663
30
0
11
153.4999996415421
21
122.3750003071663
31
0
0
LINE
5
157
100
AcDbEntity
8
0
100
AcDbLine
10
208.4999996415421
20
125.37500030716629
30
0
11
183.4999996415421
21
125.37500030716629
31
0
0
LINE
5
158
100
AcDbEntity
8
0
100
AcDbLine
10
193.4999996415421
20
123.8750003071664
30
0
11
168.4999996415421
21
123.8750003071664
31
0
0
LINE
5
159
100
AcDbEntity
8
0
100
AcDbLine
10
208.4999996415421
20
122.3750003071663
30
0
11
183.4999996415421
21
122.3750003071663
31
0
0
LINE
5
160
100
AcDbEntity
8
0
100
AcDbLine
10
213.4999996415421
20
125.37500030716629
30
0
11
225.99999964154216
21
125.37500030716629
31
0
0
LINE
5
161
100
AcDbEntity
8
0
100
AcDbLine
10
223.49999964154216
20
123.8750003071664
30
0
11
198.49999964154216
21
123.8750003071664
31
0
0
LINE
5
162
100
AcDbEntity
8
0
100
AcDbLine
10
213.4999996415421
20
122.3750003071663
30
0
11
225.99999964154216
21
122.3750003071663
31
0
0
LWPOLYLINE
5
163
100
AcDbEntity
8
0
100
AcDbPolyline
90
8
70
1
43
0.0
10
234.99999964154233
20
20.000000307166378
10
234.99999964154233
20
50.000000307166403
42
-0.41421356237309415
10
254.9999996415423
20
70.000000307166388
10
284.99999964154227
20
70.000000307166417
42
-0.41421356237309581
10
304.99999964154233
20
50.000000307166403
10
304.99999964154233
20
20.000000307166378
42
-0.41421356237309537
10
284.99999964154233
20
3.0716637410000001e-07
10
254.99999964154233
20
3.0716643006911681e-07
42
-0.41421356237309581
0
LWPOLYLINE
5
164
100
AcDbEntity
8
0
100
AcDbPolyline
90
4
70
1
43
0.0
10
279.99999964154233
20
64.000000307166374
10
259.99999964154233
20
64.000000307166374
10
259.99999964154233
20
67.00000030716636
10
279.99999964154233
20
67.00000030716636
0
LWPOLYLINE
5
165
100
AcDbEntity
8
0
100
AcDbPolyline
90
8
70
1
43
0.0
10
243.99999964154233
20
20.000000307166378
10
243.99999964154233
20
50.000000307166403
42
-0.41421356237309837
10
254.99999964154239
20
61.00000030716636
10
284.99999964154233
20
61.000000307166374
42
-0.41421356237309598
10
295.99999964154233
20
50.000000307166403
10
295.99999964154233
20
20.000000307166378
42
-0.4142135623730937
10
284.99999964154233
20
9.0000003071663723
10
254.99999964154233
20
9.0000003071664167
42
-0.41421356237309648
0
LWPOLYLINE
5
166
100
AcDbEntity
8
0
100
AcDbPolyline
90
4
70
1
43
0.0
10
237.99999964154233
20
25.000000307166381
10
237.99999964154233
20
45.000000307166374
10
240.99999964154227
20
45.000000307166374
10
240.99999964154227
20
25.000000307166381
0
LWPOLYLINE
5
167
100
AcDbEntity
8
0
100
AcDbPolyline
90
4
70
1
43
0.0
10
259.99999964154233
20
3.0000003071663732
10
279.99999964154233
20
3.0000003071663732
10
279.99999964154233
20
6.0000003071663741
10
259.99999964154233
20
6.0000003071663741
0
LWPOLYLINE
5
168
100
AcDbEntity
8
0
100
AcDbPolyline
90
4
70
1
43
0.0
10
298.99999964154233
20
45.000000307166374
10
298.99999964154233
20
25.000000307166381
10
301.99999964154233
20
25.000000307166381
10
301.99999964154233
20
45.000000307166374
0
LWPOLYLINE
5
169
100
AcDbEntity
8
0
100
AcDbPolyline
90
4
70
1
43
0.0
10
310.99999964154233
20
25.000000307166381
10
310.99999964154233
20
45.000000307166374
10
313.99999964154233
20
45.000000307166374
10
313.99999964154233
20
25.000000307166381
0
LWPOLYLINE
5
170
100
AcDbEntity
8
0
100
AcDbPolyline
90
4
70
1
43
0.0
10
332.99999964154239
20
67.00000030716636
10
352.99999964154239
20
67.00000030716636
10
352.99999964154239
20
64.000000307166374
10
332.99999964154239
20
64.000000307166374
0
LWPOLYLINE
5
171
100
AcDbEntity
8
0
100
AcDbPolyline
90
4
70
1
43
0.0
10
374.99999964154233
20
25.000000307166381
10
374.99999964154233
20
45.000000307166374
10
371.99999964154233
20
45.000000307166374
10
371.99999964154233
20
25.000000307166381
0
LWPOLYLINE
5
172
100
AcDbEntity
8
0
100
AcDbPolyline
90
8
70
1
43
0.0
10
307.99999964154233
20
50.000000307166431
42
-0.41421356237309553
10
327.99999964154239
20
70.000000307166388
10
357.99999964154239
20
70.000000307166417
42
-0.41421356237309531
10
377.99999964154239
20
50.000000307166403
10
377.99999964154239
20
20.000000307166413
42
-0.41421356237309587
10
357.99999964154239
20
3.0716637410000001e-07
10
327.99999964154233
20
3.0716639454198003e-07
42
-0.41421356237309531
10
307.99999964154233
20
20.000000307166378
0
LWPOLYLINE
5
173
100
AcDbEntity
8
0
100
AcDbPolyline
90
4
70
1
43
0.0
10
332.99999964154239
20
3.0000003071663732
10
352.99999964154239
20
3.0000003071663732
10
352.99999964154239
20
6.0000003071663741
10
332.99999964154239
20
6.0000003071663741
0
LINE
5
174
100
AcDbEntity
8
0
100
AcDbLine
10
148.4999996415421
20
200.1250003071664
30
0
11
135.99999964154233
21
200.1250003071664
31
0
0
LINE
5
175
100
AcDbEntity
8
0
100
AcDbLine
10
178.4999996415421
20
200.1250003071664
30
0
11
153.4999996415421
21
200.1250003071664
31
0
0
LINE
5
176
100
AcDbEntity
8
0
100
AcDbLine
10
208.4999996415421
20
200.1250003071664
30
0
11
183.4999996415421
21
200.1250003071664
31
0
0
LINE
5
177
100
AcDbEntity
8
0
100
AcDbLine
10
213.4999996415421
20
200.1250003071664
30
0
11
225.99999964154216
21
200.1250003071664
31
0
0
LINE
5
178
100
AcDbEntity
8
0
100
AcDbLine
10
223.49999964154216
20
198.62500030716643
30
0
11
198.49999964154216
21
198.62500030716643
31
0
0
LINE
5
179
100
AcDbEntity
8
0
100
AcDbLine
10
193.4999996415421
20
198.62500030716643
30
0
11
168.4999996415421
21
198.62500030716643
31
0
0
LINE
5
180
100
AcDbEntity
8
0
100
AcDbLine
10
178.4999996415421
20
197.1250003071664
30
0
11
153.4999996415421
21
197.1250003071664
31
0
0
LINE
5
181
100
AcDbEntity
8
0
100
AcDbLine
10
208.4999996415421
20
197.1250003071664
30
0
11
183.4999996415421
21
197.1250003071664
31
0
0
LINE
5
182
100
AcDbEntity
8
0
100
AcDbLine
10
213.4999996415421
20
197.1250003071664
30
0
11
225.99999964154216
21
197.1250003071664
31
0
0
LINE
5
183
100
AcDbEntity
8
0
100
AcDbLine
10
223.49999964154216
20
195.62500030716643
30
0
11
198.49999964154216
21
195.62500030716643
31
0
0
LINE
5
184
100
AcDbEntity
8
0
100
AcDbLine
10
193.4999996415421
20
195.62500030716643
30
0
11
168.4999996415421
21
195.62500030716643
31
0
0
LINE
5
185
100
AcDbEntity
8
0
100
AcDbLine
10
148.4999996415421
20
197.1250003071664
30
0
11
135.99999964154233
21
197.1250003071664
31
0
0
LINE
5
186
100
AcDbEntity
8
0
100
AcDbLine
10
163.4999996415421
20
198.62500030716643
30
0
11
138.4999996415421
21
198.62500030716643
31
0
0
LINE
5
187
100
AcDbEntity
8
0
100
AcDbLine
10
163.4999996415421
20
195.62500030716643
30
0
11
138.4999996415421
21
195.62500030716643
31
0
0
LINE
5
188
100
AcDbEntity
8
0
100
AcDbLine
10
148.4999996415421
20
194.12500030716632
30
0
11
135.99999964154233
21
194.12500030716632
31
0
0
LINE
5
189
100
AcDbEntity
8
0
100
AcDbLine
10
178.4999996415421
20
194.12500030716632
30
0
11
153.4999996415421
21
194.12500030716632
31
0
0
LINE
5
190
100
AcDbEntity
8
0
100
AcDbLine
10
208.4999996415421
20
194.12500030716632
30
0
11
183.4999996415421
21
194.12500030716632
31
0
0
LINE
5
191
100
AcDbEntity
8
0
100
AcDbLine
10
213.4999996415421
20
194.12500030716632
30
0
11
225.99999964154216
21
194.12500030716632
31
0
0
LINE
5
192
100
AcDbEntity
8
0
100
AcDbLine
10
223.49999964154216
20
192.6250003071664
30
0
11
198.49999964154216
21
192.6250003071664
31
0
0
LINE
5
193
100
AcDbEntity
8
0
100
AcDbLine
10
193.4999996415421
20
192.6250003071664
30
0
11
168.4999996415421
21
192.6250003071664
31
0
0
LINE
5
194
100
AcDbEntity
8
0
100
AcDbLine
10
148.4999996415421
20
191.12500030716632
30
0
11
135.99999964154233
21
191.12500030716632
31
0
0
LINE
5
195
100
AcDbEntity
8
0
100
AcDbLine
10
163.4999996415421
20
192.6250003071664
30
0
11
138.4999996415421
21
192.6250003071664
31
0
0
LINE
5
196
100
AcDbEntity
8
0
100
AcDbLine
10
178.4999996415421
20
191.12500030716632
30
0
11
153.4999996415421
21
191.12500030716632
31
0
0
LINE
5
197
100
AcDbEntity
8
0
100
AcDbLine
10
208.4999996415421
20
191.12500030716632
30
0
11
183.4999996415421
21
191.12500030716632
31
0
0
LINE
5
198
100
AcDbEntity
8
0
100
AcDbLine
10
213.4999996415421
20
191.12500030716632
30
0
11
225.99999964154216
21
191.12500030716632
31
0
0
LINE
5
199
100
AcDbEntity
8
0
100
AcDbLine
10
223.49999964154216
20
189.6250003071664
30
0
11
198.49999964154216
21
189.6250003071664
31
0
0
LINE
5
200
100
AcDbEntity
8
0
100
AcDbLine
10
208.4999996415421
20
188.12500030716632
30
0
11
183.4999996415421
21
188.12500030716632
31
0
0
LINE
5
201
100
AcDbEntity
8
0
100
AcDbLine
10
193.4999996415421
20
189.6250003071664
30
0
11
168.4999996415421
21
189.6250003071664
31
0
0
LINE
5
202
100
AcDbEntity
8
0
100
AcDbLine
10
163.4999996415421
20
189.6250003071664
30
0
11
138.4999996415421
21
189.6250003071664
31
0
0
LINE
5
203
100
AcDbEntity
8
0
100
AcDbLine
10
148.4999996415421
20
188.12500030716632
30
0
11
135.99999964154233
21
188.12500030716632
31
0
0
LINE
5
204
100
AcDbEntity
8
0
100
AcDbLine
10
148.4999996415421
20
185.1250003071664
30
0
11
135.99999964154233
21
185.1250003071664
31
0
0
LINE
5
205
100
AcDbEntity
8
0
100
AcDbLine
10
163.4999996415421
20
186.62500030716632
30
0
11
138.4999996415421
21
186.62500030716632
31
0
0
LINE
5
206
100
AcDbEntity
8
0
100
AcDbLine
10
178.4999996415421
20
188.12500030716632
30
0
11
153.4999996415421
21
188.12500030716632
31
0
0
LINE
5
207
100
AcDbEntity
8
0
100
AcDbLine
10
193.4999996415421
20
186.62500030716632
30
0
11
168.4999996415421
21
186.62500030716632
31
0
0
LINE
5
208
100
AcDbEntity
8
0
100
AcDbLine
10
223.49999964154216
20
186.62500030716632
30
0
11
198.49999964154216
21
186.62500030716632
31
0
0
LINE
5
209
100
AcDbEntity
8
0
100
AcDbLine
10
213.4999996415421
20
188.12500030716632
30
0
11
225.99999964154216
21
188.12500030716632
31
0
0
LINE
5
210
100
AcDbEntity
8
0
100
AcDbLine
10
213.4999996415421
20
185.1250003071664
30
0
11
225.99999964154216
21
185.1250003071664
31
0
0
LINE
5
211
100
AcDbEntity
8
0
100
AcDbLine
10
208.4999996415421
20
185.1250003071664
30
0
11
183.4999996415421
21
185.1250003071664
31
0
0
LINE
5
212
100
AcDbEntity
8
0
100
AcDbLine
10
178.4999996415421
20
185.1250003071664
30
0
11
153.4999996415421
21
185.1250003071664
31
0
0
LINE
5
213
100
AcDbEntity
8
0
100
AcDbLine
10
163.4999996415421
20
183.62500030716632
30
0
11
138.4999996415421
21
183.62500030716632
31
0
0
LINE
5
214
100
AcDbEntity
8
0
100
AcDbLine
10
148.4999996415421
20
182.1250003071664
30
0
11
135.99999964154233
21
182.1250003071664
31
0
0
LINE
5
215
100
AcDbEntity
8
0
100
AcDbLine
10
178.4999996415421
20
182.1250003071664
30
0
11
153.4999996415421
21
182.1250003071664
31
0
0
LINE
5
216
100
AcDbEntity
8
0
100
AcDbLine
10
208.4999996415421
20
182.1250003071664
30
0
11
183.4999996415421
21
182.1250003071664
31
0
0
LINE
5
217
100
AcDbEntity
8
0
100
AcDbLine
10
193.4999996415421
20
183.62500030716632
30
0
11
168.4999996415421
21
183.62500030716632
31
0
0
LINE
5
218
100
AcDbEntity
8
0
100
AcDbLine
10
223.49999964154216
20
183.62500030716632
30
0
11
198.49999964154216
21
183.62500030716632
31
0
0
LINE
5
219
100
AcDbEntity
8
0
100
AcDbLine
10
213.4999996415421
20
182.1250003071664
30
0
11
225.99999964154216
21
182.1250003071664
31
0
0
LINE
5
220
100
AcDbEntity
8
0
100
AcDbLine
10
213.4999996415421
20
179.1250003071664
30
0
11
225.99999964154216
21
179.1250003071664
31
0
0
LINE
5
221
100
AcDbEntity
8
0
100
AcDbLine
10
208.4999996415421
20
179.1250003071664
30
0
11
183.4999996415421
21
179.1250003071664
31
0
0
LINE
5
222
100
AcDbEntity
8
0
100
AcDbLine
10
223.49999964154216
20
180.62500030716632
30
0
11
198.49999964154216
21
180.62500030716632
31
0
0
LINE
5
223
100
AcDbEntity
8
0
100
AcDbLine
10
193.4999996415421
20
180.62500030716632
30
0
11
168.4999996415421
21
180.62500030716632
31
0
0
LINE
5
224
100
AcDbEntity
8
0
100
AcDbLine
10
163.4999996415421
20
180.62500030716632
30
0
11
138.4999996415421
21
180.62500030716632
31
0
0
LINE
5
225
100
AcDbEntity
8
0
100
AcDbLine
10
178.4999996415421
20
179.1250003071664
30
0
11
153.4999996415421
21
179.1250003071664
31
0
0
LINE
5
226
100
AcDbEntity
8
0
100
AcDbLine
10
148.4999996415421
20
179.1250003071664
30
0
11
135.99999964154233
21
179.1250003071664
31
0
0
LINE
5
227
100
AcDbEntity
8
0
100
AcDbLine
10
148.4999996415421
20
176.12500030716643
30
0
11
135.99999964154233
21
176.12500030716643
31
0
0
LINE
5
228
100
AcDbEntity
8
0
100
AcDbLine
10
163.4999996415421
20
177.62500030716635
30
0
11
138.4999996415421
21
177.62500030716635
31
0
0
LINE
5
229
100
AcDbEntity
8
0
100
AcDbLine
10
178.4999996415421
20
176.12500030716643
30
0
11
153.4999996415421
21
176.12500030716643
31
0
0
LINE
5
230
100
AcDbEntity
8
0
100
AcDbLine
10
193.4999996415421
20
177.62500030716635
30
0
11
168.4999996415421
21
177.62500030716635
31
0
0
LINE
5
231
100
AcDbEntity
8
0
100
AcDbLine
10
223.49999964154216
20
177.62500030716635
30
0
11
198.49999964154216
21
177.62500030716635
31
0
0
LINE
5
232
100
AcDbEntity
8
0
100
AcDbLine
10
208.4999996415421
20
176.12500030716643
30
0
11
183.4999996415421
21
176.12500030716643
31
0
0
LINE
5
233
100
AcDbEntity
8
0
100
AcDbLine
10
213.4999996415421
20
176.12500030716643
30
0
11
225.99999964154216
21
176.12500030716643
31
0
0
LINE
5
234
100
AcDbEntity
8
0
100
AcDbLine
10
148.4999996415421
20
92.62500030716636
30
0
11
135.99999964154233
21
92.62500030716636
31
0
0
LINE
5
235
100
AcDbEntity
8
0
100
AcDbLine
10
163.4999996415421
20
91.125000307166374
30
0
11
138.4999996415421
21
91.125000307166374
31
0
0
LINE
5
236
100
AcDbEntity
8
0
100
AcDbLine
10
148.4999996415421
20
89.625000307166374
30
0
11
135.99999964154233
21
89.625000307166374
31
0
0
LINE
5
237
100
AcDbEntity
8
0
100
AcDbLine
10
163.4999996415421
20
88.12500030716636
30
0
11
138.4999996415421
21
88.12500030716636
31
0
0
LINE
5
238
100
AcDbEntity
8
0
100
AcDbLine
10
148.4999996415421
20
86.625000307166346
30
0
11
135.99999964154233
21
86.625000307166346
31
0
0
LINE
5
239
100
AcDbEntity
8
0
100
AcDbLine
10
148.4999996415421
20
83.625000307166374
30
0
11
135.99999964154233
21
83.625000307166374
31
0
0
LINE
5
240
100
AcDbEntity
8
0
100
AcDbLine
10
163.4999996415421
20
85.125000307166374
30
0
11
138.4999996415421
21
85.125000307166374
31
0
0
LINE
5
241
100
AcDbEntity
8
0
100
AcDbLine
10
163.4999996415421
20
82.125000307166388
30
0
11
138.4999996415421
21
82.125000307166388
31
0
0
LINE
5
242
100
AcDbEntity
8
0
100
AcDbLine
10
148.4999996415421
20
80.625000307166374
30
0
11
135.99999964154233
21
80.625000307166374
31
0
0
LINE
5
243
100
AcDbEntity
8
0
100
AcDbLine
10
163.4999996415421
20
79.125000307166374
30
0
11
138.4999996415421
21
79.125000307166374
31
0
0
LINE
5
244
100
AcDbEntity
8
0
100
AcDbLine
10
148.4999996415421
20
77.625000307166374
30
0
11
135.99999964154233
21
77.625000307166374
31
0
0
LINE
5
245
100
AcDbEntity
8
0
100
AcDbLine
10
163.4999996415421
20
76.125000307166374
30
0
11
138.4999996415421
21
76.125000307166374
31
0
0
LINE
5
246
100
AcDbEntity
8
0
100
AcDbLine
10
148.4999996415421
20
74.625000307166374
30
0
11
135.99999964154233
21
74.625000307166374
31
0
0
LINE
5
247
100
AcDbEntity
8
0
100
AcDbLine
10
163.4999996415421
20
73.125000307166374
30
0
11
138.4999996415421
21
73.125000307166374
31
0
0
LINE
5
248
100
AcDbEntity
8
0
100
AcDbLine
10
148.4999996415421
20
71.625000307166374
30
0
11
135.99999964154233
21
71.625000307166374
31
0
0
LINE
5
249
100
AcDbEntity
8
0
100
AcDbLine
10
163.4999996415421
20
70.12500030716636
30
0
11
138.4999996415421
21
70.12500030716636
31
0
0
LINE
5
250
100
AcDbEntity
8
0
100
AcDbLine
10
148.4999996415421
20
68.62500030716636
30
0
11
135.99999964154233
21
68.62500030716636
31
0
0
LINE
5
251
100
AcDbEntity
8
0
100
AcDbLine
10
178.4999996415421
20
92.62500030716636
30
0
11
153.4999996415421
21
92.62500030716636
31
0
0
LINE
5
252
100
AcDbEntity
8
0
100
AcDbLine
10
193.4999996415421
20
91.125000307166374
30
0
11
168.4999996415421
21
91.125000307166374
31
0
0
LINE
5
253
100
AcDbEntity
8
0
100
AcDbLine
10
178.4999996415421
20
89.625000307166374
30
0
11
153.4999996415421
21
89.625000307166374
31
0
0
LINE
5
254
100
AcDbEntity
8
0
100
AcDbLine
10
178.4999996415421
20
86.625000307166346
30
0
11
153.4999996415421
21
86.625000307166346
31
0
0
LINE
5
255
100
AcDbEntity
8
0
100
AcDbLine
10
193.4999996415421
20
88.12500030716636
30
0
11
168.4999996415421
21
88.12500030716636
31
0
0
LINE
5
256
100
AcDbEntity
8
0
100
AcDbLine
10
178.4999996415421
20
83.625000307166374
30
0
11
153.4999996415421
21
83.625000307166374
31
0
0
LINE
5
257
100
AcDbEntity
8
0
100
AcDbLine
10
193.4999996415421
20
85.125000307166374
30
0
11
168.4999996415421
21
85.125000307166374
31
0
0
LINE
5
258
100
AcDbEntity
8
0
100
AcDbLine
10
193.4999996415421
20
82.125000307166388
30
0
11
168.4999996415421
21
82.125000307166388
31
0
0
LINE
5
259
100
AcDbEntity
8
0
100
AcDbLine
10
178.4999996415421
20
80.625000307166374
30
0
11
153.4999996415421
21
80.625000307166374
31
0
0
LINE
5
260
100
AcDbEntity
8
0
100
AcDbLine
10
193.4999996415421
20
79.125000307166374
30
0
11
168.4999996415421
21
79.125000307166374
31
0
0
LINE
5
261
100
AcDbEntity
8
0
100
AcDbLine
10
178.4999996415421
20
77.625000307166374
30
0
11
153.4999996415421
21
77.625000307166374
31
0
0
LINE
5
262
100
AcDbEntity
8
0
100
AcDbLine
10
193.4999996415421
20
76.125000307166374
30
0
11
168.4999996415421
21
76.125000307166374
31
0
0
LINE
5
263
100
AcDbEntity
8
0
100
AcDbLine
10
178.4999996415421
20
74.625000307166374
30
0
11
153.4999996415421
21
74.625000307166374
31
0
0
LINE
5
264
100
AcDbEntity
8
0
100
AcDbLine
10
193.4999996415421
20
73.125000307166374
30
0
11
168.4999996415421
21
73.125000307166374
31
0
0
LINE
5
265
100
AcDbEntity
8
0
100
AcDbLine
10
178.4999996415421
20
71.625000307166374
30
0
11
153.4999996415421
21
71.625000307166374
31
0
0
LINE
5
266
100
AcDbEntity
8
0
100
AcDbLine
10
193.4999996415421
20
70.12500030716636
30
0
11
168.4999996415421
21
70.12500030716636
31
0
0
LINE
5
267
100
AcDbEntity
8
0
100
AcDbLine
10
178.4999996415421
20
68.62500030716636
30
0
11
153.4999996415421
21
68.62500030716636
31
0
0
LINE
5
268
100
AcDbEntity
8
0
100
AcDbLine
10
208.4999996415421
20
92.62500030716636
30
0
11
183.4999996415421
21
92.62500030716636
31
0
0
LINE
5
269
100
AcDbEntity
8
0
100
AcDbLine
10
223.49999964154216
20
91.125000307166374
30
0
11
198.49999964154216
21
91.125000307166374
31
0
0
LINE
5
270
100
AcDbEntity
8
0
100
AcDbLine
10
208.4999996415421
20
89.625000307166374
30
0
11
183.4999996415421
21
89.625000307166374
31
0
0
LINE
5
271
100
AcDbEntity
8
0
100
AcDbLine
10
223.49999964154216
20
88.12500030716636
30
0
11
198.49999964154216
21
88.12500030716636
31
0
0
LINE
5
272
100
AcDbEntity
8
0
100
AcDbLine
10
208.4999996415421
20
86.625000307166346
30
0
11
183.4999996415421
21
86.625000307166346
31
0
0
LINE
5
273
100
AcDbEntity
8
0
100
AcDbLine
10
223.49999964154216
20
85.125000307166374
30
0
11
198.49999964154216
21
85.125000307166374
31
0
0
LINE
5
274
100
AcDbEntity
8
0
100
AcDbLine
10
208.4999996415421
20
83.625000307166374
30
0
11
183.4999996415421
21
83.625000307166374
31
0
0
LINE
5
275
100
AcDbEntity
8
0
100
AcDbLine
10
223.49999964154216
20
82.125000307166388
30
0
11
198.49999964154216
21
82.125000307166388
31
0
0
LINE
5
276
100
AcDbEntity
8
0
100
AcDbLine
10
208.4999996415421
20
80.625000307166374
30
0
11
183.4999996415421
21
80.625000307166374
31
0
0
LINE
5
277
100
AcDbEntity
8
0
100
AcDbLine
10
208.4999996415421
20
77.625000307166374
30
0
11
183.4999996415421
21
77.625000307166374
31
0
0
LINE
5
278
100
AcDbEntity
8
0
100
AcDbLine
10
223.49999964154216
20
79.125000307166374
30
0
11
198.49999964154216
21
79.125000307166374
31
0
0
LINE
5
279
100
AcDbEntity
8
0
100
AcDbLine
10
208.4999996415421
20
74.625000307166374
30
0
11
183.4999996415421
21
74.625000307166374
31
0
0
LINE
5
280
100
AcDbEntity
8
0
100
AcDbLine
10
223.49999964154216
20
76.125000307166374
30
0
11
198.49999964154216
21
76.125000307166374
31
0
0
LINE
5
281
100
AcDbEntity
8
0
100
AcDbLine
10
208.4999996415421
20
71.625000307166374
30
0
11
183.4999996415421
21
71.625000307166374
31
0
0
LINE
5
282
100
AcDbEntity
8
0
100
AcDbLine
10
223.49999964154216
20
70.12500030716636
30
0
11
198.49999964154216
21
70.12500030716636
31
0
0
LINE
5
283
100
AcDbEntity
8
0
100
AcDbLine
10
208.4999996415421
20
68.62500030716636
30
0
11
183.4999996415421
21
68.62500030716636
31
0
0
LINE
5
284
100
AcDbEntity
8
0
100
AcDbLine
10
213.4999996415421
20
92.62500030716636
30
0
11
225.99999964154216
21
92.62500030716636
31
0
0
LINE
5
285
100
AcDbEntity
8
0
100
AcDbLine
10
213.4999996415421
20
89.625000307166374
30
0
11
225.99999964154216
21
89.625000307166374
31
0
0
LINE
5
286
100
AcDbEntity
8
0
100
AcDbLine
10
213.4999996415421
20
86.625000307166346
30
0
11
225.99999964154216
21
86.625000307166346
31
0
0
LINE
5
287
100
AcDbEntity
8
0
100
AcDbLine
10
213.4999996415421
20
83.625000307166374
30
0
11
225.99999964154216
21
83.625000307166374
31
0
0
LINE
5
288
100
AcDbEntity
8
0
100
AcDbLine
10
213.4999996415421
20
80.625000307166374
30
0
11
225.99999964154216
21
80.625000307166374
31
0
0
LINE
5
289
100
AcDbEntity
8
0
100
AcDbLine
10
213.4999996415421
20
77.625000307166374
30
0
11
225.99999964154216
21
77.625000307166374
31
0
0
LINE
5
290
100
AcDbEntity
8
0
100
AcDbLine
10
213.4999996415421
20
74.625000307166374
30
0
11
225.99999964154216
21
74.625000307166374
31
0
0
LINE
5
291
100
AcDbEntity
8
0
100
AcDbLine
10
213.4999996415421
20
71.625000307166374
30
0
11
225.99999964154216
21
71.625000307166374
31
0
0
LINE
5
292
100
AcDbEntity
8
0
100
AcDbLine
10
223.49999964154216
20
73.125000307166374
30
0
11
198.49999964154216
21
73.125000307166374
31
0
0
LINE
5
293
100
AcDbEntity
8
0
100
AcDbLine
10
213.4999996415421
20
68.62500030716636
30
0
11
225.99999964154216
21
68.62500030716636
31
0
0
LINE
5
294
100
AcDbEntity
8
0
100
AcDbLine
10
148.4999996415421
20
38.875000307166367
30
0
11
135.99999964154233
21
38.875000307166367
31
0
0
LINE
5
295
100
AcDbEntity
8
0
100
AcDbLine
10
163.4999996415421
20
37.375000307166374
30
0
11
138.4999996415421
21
37.375000307166374
31
0
0
LINE
5
296
100
AcDbEntity
8
0
100
AcDbLine
10
148.4999996415421
20
35.875000307166388
30
0
11
135.99999964154233
21
35.875000307166388
31
0
0
LINE
5
297
100
AcDbEntity
8
0
100
AcDbLine
10
163.4999996415421
20
34.375000307166381
30
0
11
138.4999996415421
21
34.375000307166381
31
0
0
LINE
5
298
100
AcDbEntity
8
0
100
AcDbLine
10
148.4999996415421
20
32.875000307166381
30
0
11
135.99999964154233
21
32.875000307166381
31
0
0
LINE
5
299
100
AcDbEntity
8
0
100
AcDbLine
10
163.4999996415421
20
31.375000307166374
30
0
11
138.4999996415421
21
31.375000307166374
31
0
0
LINE
5
300
100
AcDbEntity
8
0
100
AcDbLine
10
148.4999996415421
20
29.875000307166371
30
0
11
135.99999964154233
21
29.875000307166371
31
0
0
LINE
5
301
100
AcDbEntity
8
0
100
AcDbLine
10
163.4999996415421
20
28.375000307166385
30
0
11
138.4999996415421
21
28.375000307166385
31
0
0
LINE
5
302
100
AcDbEntity
8
0
100
AcDbLine
10
148.4999996415421
20
26.875000307166381
30
0
11
135.99999964154233
21
26.875000307166381
31
0
0
LINE
5
303
100
AcDbEntity
8
0
100
AcDbLine
10
148.4999996415421
20
23.875000307166371
30
0
11
135.99999964154233
21
23.875000307166371
31
0
0
LINE
5
304
100
AcDbEntity
8
0
100
AcDbLine
10
163.4999996415421
20
22.375000307166371
30
0
11
138.4999996415421
21
22.375000307166371
31
0
0
LINE
5
305
100
AcDbEntity
8
0
100
AcDbLine
10
163.4999996415421
20
25.375000307166381
30
0
11
138.4999996415421
21
25.375000307166381
31
0
0
LINE
5
306
100
AcDbEntity
8
0
100
AcDbLine
10
148.4999996415421
20
20.875000307166381
30
0
11
135.99999964154233
21
20.875000307166381
31
0
0
LINE
5
307
100
AcDbEntity
8
0
100
AcDbLine
10
163.4999996415421
20
19.375000307166374
30
0
11
138.4999996415421
21
19.375000307166374
31
0
0
LINE
5
308
100
AcDbEntity
8
0
100
AcDbLine
10
148.4999996415421
20
17.875000307166371
30
0
11
135.99999964154233
21
17.875000307166371
31
0
0
LINE
5
309
100
AcDbEntity
8
0
100
AcDbLine
10
163.4999996415421
20
16.375000307166371
30
0
11
138.4999996415421
21
16.375000307166371
31
0
0
LINE
5
310
100
AcDbEntity
8
0
100
AcDbLine
10
148.4999996415421
20
14.875000307166371
30
0
11
135.99999964154233
21
14.875000307166371
31
0
0
LINE
5
311
100
AcDbEntity
8
0
100
AcDbLine
10
178.4999996415421
20
38.875000307166367
30
0
11
153.4999996415421
21
38.875000307166367
31
0
0
LINE
5
312
100
AcDbEntity
8
0
100
AcDbLine
10
193.4999996415421
20
37.375000307166374
30
0
11
168.4999996415421
21
37.375000307166374
31
0
0
LINE
5
313
100
AcDbEntity
8
0
100
AcDbLine
10
178.4999996415421
20
35.875000307166388
30
0
11
153.4999996415421
21
35.875000307166388
31
0
0
LINE
5
314
100
AcDbEntity
8
0
100
AcDbLine
10
193.4999996415421
20
34.375000307166381
30
0
11
168.4999996415421
21
34.375000307166381
31
0
0
LINE
5
315
100
AcDbEntity
8
0
100
AcDbLine
10
178.4999996415421
20
32.875000307166381
30
0
11
153.4999996415421
21
32.875000307166381
31
0
0
LINE
5
316
100
AcDbEntity
8
0
100
AcDbLine
10
193.4999996415421
20
31.375000307166374
30
0
11
168.4999996415421
21
31.375000307166374
31
0
0
LINE
5
317
100
AcDbEntity
8
0
100
AcDbLine
10
178.4999996415421
20
26.875000307166381
30
0
11
153.4999996415421
21
26.875000307166381
31
0
0
LINE
5
318
100
AcDbEntity
8
0
100
AcDbLine
10
178.4999996415421
20
29.875000307166371
30
0
11
153.4999996415421
21
29.875000307166371
31
0
0
LINE
5
319
100
AcDbEntity
8
0
100
AcDbLine
10
193.4999996415421
20
28.375000307166385
30
0
11
168.4999996415421
21
28.375000307166385
31
0
0
LINE
5
320
100
AcDbEntity
8
0
100
AcDbLine
10
193.4999996415421
20
25.375000307166381
30
0
11
168.4999996415421
21
25.375000307166381
31
0
0
LINE
5
321
100
AcDbEntity
8
0
100
AcDbLine
10
178.4999996415421
20
23.875000307166371
30
0
11
153.4999996415421
21
23.875000307166371
31
0
0
LINE
5
322
100
AcDbEntity
8
0
100
AcDbLine
10
193.4999996415421
20
22.375000307166371
30
0
11
168.4999996415421
21
22.375000307166371
31
0
0
LINE
5
323
100
AcDbEntity
8
0
100
AcDbLine
10
193.4999996415421
20
19.375000307166374
30
0
11
168.4999996415421
21
19.375000307166374
31
0
0
LINE
5
324
100
AcDbEntity
8
0
100
AcDbLine
10
178.4999996415421
20
20.875000307166381
30
0
11
153.4999996415421
21
20.875000307166381
31
0
0
LINE
5
325
100
AcDbEntity
8
0
100
AcDbLine
10
178.4999996415421
20
17.875000307166371
30
0
11
153.4999996415421
21
17.875000307166371
31
0
0
LINE
5
326
100
AcDbEntity
8
0
100
AcDbLine
10
193.4999996415421
20
16.375000307166371
30
0
11
168.4999996415421
21
16.375000307166371
31
0
0
LINE
5
327
100
AcDbEntity
8
0
100
AcDbLine
10
178.4999996415421
20
14.875000307166371
30
0
11
153.4999996415421
21
14.875000307166371
31
0
0
LINE
5
328
100
AcDbEntity
8
0
100
AcDbLine
10
208.4999996415421
20
38.875000307166367
30
0
11
183.4999996415421
21
38.875000307166367
31
0
0
LINE
5
329
100
AcDbEntity
8
0
100
AcDbLine
10
223.49999964154216
20
37.375000307166374
30
0
11
198.49999964154216
21
37.375000307166374
31
0
0
LINE
5
330
100
AcDbEntity
8
0
100
AcDbLine
10
208.4999996415421
20
35.875000307166388
30
0
11
183.4999996415421
21
35.875000307166388
31
0
0
LINE
5
331
100
AcDbEntity
8
0
100
AcDbLine
10
223.49999964154216
20
34.375000307166381
30
0
11
198.49999964154216
21
34.375000307166381
31
0
0
LINE
5
332
100
AcDbEntity
8
0
100
AcDbLine
10
208.4999996415421
20
32.875000307166381
30
0
11
183.4999996415421
21
32.875000307166381
31
0
0
LINE
5
333
100
AcDbEntity
8
0
100
AcDbLine
10
223.49999964154216
20
28.375000307166385
30
0
11
198.49999964154216
21
28.375000307166385
31
0
0
LINE
5
334
100
AcDbEntity
8
0
100
AcDbLine
10
208.4999996415421
20
29.875000307166371
30
0
11
183.4999996415421
21
29.875000307166371
31
0
0
LINE
5
335
100
AcDbEntity
8
0
100
AcDbLine
10
223.49999964154216
20
31.375000307166374
30
0
11
198.49999964154216
21
31.375000307166374
31
0
0
LINE
5
336
100
AcDbEntity
8
0
100
AcDbLine
10
208.4999996415421
20
26.875000307166381
30
0
11
183.4999996415421
21
26.875000307166381
31
0
0
LINE
5
337
100
AcDbEntity
8
0
100
AcDbLine
10
223.49999964154216
20
25.375000307166381
30
0
11
198.49999964154216
21
25.375000307166381
31
0
0
LINE
5
338
100
AcDbEntity
8
0
100
AcDbLine
10
208.4999996415421
20
23.875000307166371
30
0
11
183.4999996415421
21
23.875000307166371
31
0
0
LINE
5
339
100
AcDbEntity
8
0
100
AcDbLine
10
223.49999964154216
20
22.375000307166371
30
0
11
198.49999964154216
21
22.375000307166371
31
0
0
LINE
5
340
100
AcDbEntity
8
0
100
AcDbLine
10
208.4999996415421
20
17.875000307166371
30
0
11
183.4999996415421
21
17.875000307166371
31
0
0
LINE
5
341
100
AcDbEntity
8
0
100
AcDbLine
10
223.49999964154216
20
19.375000307166374
30
0
11
198.49999964154216
21
19.375000307166374
31
0
0
LINE
5
342
100
AcDbEntity
8
0
100
AcDbLine
10
208.4999996415421
20
20.875000307166381
30
0
11
183.4999996415421
21
20.875000307166381
31
0
0
LINE
5
343
100
AcDbEntity
8
0
100
AcDbLine
10
223.49999964154216
20
16.375000307166371
30
0
11
198.49999964154216
21
16.375000307166371
31
0
0
LINE
5
344
100
AcDbEntity
8
0
100
AcDbLine
10
208.4999996415421
20
14.875000307166371
30
0
11
183.4999996415421
21
14.875000307166371
31
0
0
LINE
5
345
100
AcDbEntity
8
0
100
AcDbLine
10
213.4999996415421
20
38.875000307166367
30
0
11
225.99999964154216
21
38.875000307166367
31
0
0
LINE
5
346
100
AcDbEntity
8
0
100
AcDbLine
10
213.4999996415421
20
35.875000307166388
30
0
11
225.99999964154216
21
35.875000307166388
31
0
0
LINE
5
347
100
AcDbEntity
8
0
100
AcDbLine
10
213.4999996415421
20
32.875000307166381
30
0
11
225.99999964154216
21
32.875000307166381
31
0
0
LINE
5
348
100
AcDbEntity
8
0
100
AcDbLine
10
213.4999996415421
20
29.875000307166371
30
0
11
225.99999964154216
21
29.875000307166371
31
0
0
LINE
5
349
100
AcDbEntity
8
0
100
AcDbLine
10
213.4999996415421
20
26.875000307166381
30
0
11
225.99999964154216
21
26.875000307166381
31
0
0
LINE
5
350
100
AcDbEntity
8
0
100
AcDbLine
10
213.4999996415421
20
23.875000307166371
30
0
11
225.99999964154216
21
23.875000307166371
31
0
0
LINE
5
351
100
AcDbEntity
8
0
100
AcDbLine
10
213.4999996415421
20
20.875000307166381
30
0
11
225.99999964154216
21
20.875000307166381
31
0
0
LINE
5
352
100
AcDbEntity
8
0
100
AcDbLine
10
213.4999996415421
20
17.875000307166371
30
0
11
225.99999964154216
21
17.875000307166371
31
0
0
LINE
5
353
100
AcDbEntity
8
0
100
AcDbLine
10
213.4999996415421
20
14.875000307166371
30
0
11
225.99999964154216
21
14.875000307166371
31
0
0
ENDSEC
0
SECTION
2
OBJECTS
0
DICTIONARY
5
C
100
AcDbDictionary
3
ACAD_GROUP
350
D
3
ACAD_MLINESTYLE
350
17
0
DICTIONARY
5
D
100
AcDbDictionary
0
DICTIONARY
5
1A
330
C
100
AcDbDictionary
0
DICTIONARY
5
17
100
AcDbDictionary
0
ENDSEC
0
EOF
